999
Created by Soft Gold Ltd. www.cadsofttools.com
999
ABViewer 7; 
  0
SECTION
  2
HEADER
  9
$ACADVER
  1
AC1015
  9
$CECOLOR
 62
256
  9
$CLAYER
  8
0
  9
$CELTYPE
  6
ByLayer
  9
$CELTSCALE
 40
1
  9
$CELWEIGHT
370
-1
  9
$DIMSTYLE
  2
Standard
  9
$DIMALT
 70
0
  9
$DIMALTF
 40
25.4
  9
$DIMAPOST
  1

  9
$DIMASZ
 40
0.18
  9
$DIMCLRD
 70
0
  9
$DIMCLRE
 70
0
  9
$DIMCLRT
 70
0
  9
$DIMEXE
 40
0.18
  9
$DIMEXO
 40
0.0625
  9
$DIMGAP
 40
0.09
  9
$DIMLFAC
 40
1
  9
$DIMDEC
 70
4
  9
$DIMTAD
 70
0
  9
$DIMTIH
 70
1
  9
$DIMTIX
 70
0
  9
$DIMTOH
 70
1
  9
$DIMPOST
  1

  9
$DIMBLK
  1
_CLOSEDFILLED
  9
$DIMBLK1
  1

  9
$DIMBLK2
  1

  9
$DIMLDRBLK
  1

  9
$DIMTXT
 40
0.18
  9
$DIMTXSTY
  7
Standard
  9
$TEXTSIZE
 40
2
  9
$TEXTSTYLE
  7
Standard
  9
$HANDSEED
  5
00000000000049A3
  9
$FILLETRAD
 40
0.25
  9
$INSUNITS
 70
0
  9
$LIMMIN
 10
-11.3788874519433
 20
0.0630591933101652
  9
$LIMMAX
 10
42.6213213560351
 20
21.4202873477226
  9
$LTSCALE
 40
1
  9
$MEASUREMENT
 70
0
  9
$PDMODE
 70
0
  9
$PDSIZE
 40
0
  9
$TILEMODE
 70
1
  9
$UCSORG
 10
0
 20
0
 30
0
  9
$UCSXDIR
 10
1
 20
0
 30
0
  9
$UCSYDIR
 10
0
 20
1
 30
0
  0
ENDSEC
  0
SECTION
  2
CLASSES
  0
CLASS
  1
IMAGE
  2
AcDbRasterImage
  3
ISM
 90
2175
280
0
281
1
  0
CLASS
  1
IMAGEDEF
  2
AcDbRasterImageDef
  3
ISM
 90
0
280
0
281
0
  0
CLASS
  1
WIPEOUT
  2
AcDbWipeout
  3
"WipeOut"
 90
2175
280
0
281
1
  0
CLASS
  1
WIPEOUTVARIABLES
  2
AcDbWipeoutVariables
  3
"WipeOut"
 90
0
280
0
281
0
  0
ENDSEC
  0
SECTION
  2
TABLES
  0
TABLE
  2
APPID
  5
4983
100
AcDbSymbolTable
  0
APPID
  5
4984
100
AcDbSymbolTableRecord
100
AcDbRegAppTableRecord
  2
ACAD
 70
0
  0
APPID
  5
4985
100
AcDbSymbolTableRecord
100
AcDbRegAppTableRecord
  2
ABViewer
 70
0
  0
ENDTAB
  0
TABLE
  2
BLOCK_RECORD
  5
4986
100
AcDbSymbolTable
  0
BLOCK_RECORD
  5
4987
100
AcDbSymbolTableRecord
100
AcDbBlockTableRecord
  2
*MODEL_SPACE
  0
BLOCK_RECORD
  5
4988
100
AcDbSymbolTableRecord
100
AcDbBlockTableRecord
  2
*PAPER_SPACE
  0
BLOCK_RECORD
  5
4989
100
AcDbSymbolTableRecord
100
AcDbBlockTableRecord
  2
AVE_RENDER
  0
BLOCK_RECORD
  5
498A
100
AcDbSymbolTableRecord
100
AcDbBlockTableRecord
  2
AVE_GLOBAL
  0
BLOCK_RECORD
  5
498B
100
AcDbSymbolTableRecord
100
AcDbBlockTableRecord
  2
_CLOSEDFILLED
  0
BLOCK_RECORD
  5
498C
100
AcDbSymbolTableRecord
100
AcDbBlockTableRecord
  2
FLUSH_REVEAL
  0
BLOCK_RECORD
  5
498D
100
AcDbSymbolTableRecord
100
AcDbBlockTableRecord
  2
ABViewer_RedLine
  0
ENDTAB
  0
TABLE
  2
STYLE
  5
3
100
AcDbSymbolTable
  0
STYLE
  5
26
100
AcDbSymbolTableRecord
100
AcDbTextStyleTableRecord
  2
Standard
 70
0
 40
2
 41
1
 50
0
 71
0
 42
2
  3
verdana.TTF
  4

1001
ACAD
1000
Verdana
1071
0
  0
STYLE
  5
DF0
100
AcDbSymbolTableRecord
100
AcDbTextStyleTableRecord
  2
PAPER
 70
0
 40
2
 41
1
 50
0
 71
0
 42
2
  3
swisse.ttf
  4

1001
ACAD
1000
Swis721 Ex BT
1071
0
  0
ENDTAB
  0
TABLE
  2
LTYPE
  5
5
100
AcDbSymbolTable
  0
LTYPE
  5
28
100
AcDbSymbolTableRecord
100
AcDbLinetypeTableRecord
  2
ByBlock
 70
0
  3

 72
65
 73
0
 40
0
  0
LTYPE
  5
29
100
AcDbSymbolTableRecord
100
AcDbLinetypeTableRecord
  2
ByLayer
 70
0
  3

 72
65
 73
0
 40
0
  0
LTYPE
  5
2A
100
AcDbSymbolTableRecord
100
AcDbLinetypeTableRecord
  2
Continuous
 70
0
  3

 72
65
 73
0
 40
0
  0
LTYPE
  5
DE2
100
AcDbSymbolTableRecord
100
AcDbLinetypeTableRecord
  2
HIDDEN
 70
0
  3
_ 
 72
65
 73
2
 40
0.375
 49
0.25
 74
0
 49
-0.125
 74
0
  0
ENDTAB
  0
TABLE
  2
LAYER
  5
2
100
AcDbSymbolTable
  0
LAYER
  5
25
100
AcDbSymbolTableRecord
100
AcDbLayerTableRecord
  2
0
 70
0
 62
7
  6
Continuous
290
1
370
-3
390
0
  0
LAYER
  5
DE3
100
AcDbSymbolTableRecord
100
AcDbLayerTableRecord
  2
DEFPOINTS
 70
0
 62
7
  6
Continuous
290
0
370
-3
390
0
  0
LAYER
  5
DE4
100
AcDbSymbolTableRecord
100
AcDbLayerTableRecord
  2
ASHADE
 70
4
 62
7
  6
Continuous
290
1
370
-3
390
0
  0
LAYER
  5
DEB
100
AcDbSymbolTableRecord
100
AcDbLayerTableRecord
  2
TSLOTS
 70
0
 62
2
  6
Continuous
290
1
370
-3
390
0
  0
LAYER
  5
20E1
100
AcDbSymbolTableRecord
100
AcDbLayerTableRecord
  2
CUTOUT
 70
0
 62
4
  6
Continuous
290
1
370
60
390
0
  0
LAYER
  5
2153
100
AcDbSymbolTableRecord
100
AcDbLayerTableRecord
  2
CARCASS
 70
0
 62
252
  6
Continuous
290
1
370
60
390
0
  0
ENDTAB
  0
TABLE
  2
VPORT
  5
498E
100
AcDbSymbolTable
  0
VPORT
  5
498F
100
AcDbSymbolTableRecord
100
AcDbViewportTableRecord
  2
*ACTIVE
 70
0
 10
0
 20
0
 11
1
 21
1
 12
15.6212169520459
 22
10.7416732705164
 32
0
 13
0
 23
0
 14
1
 24
1
 15
1
 25
1
 16
0
 26
0
 36
1
 17
0
 27
0
 37
0
 40
21.3572281544124
 41
2.52842777244115
 42
50
 43
0
 44
0
 50
0
 51
0
 71
0
 72
100
 73
1
 74
1
 75
0
 76
0
 77
0
 78
0
  0
ENDTAB
  0
TABLE
  2
VIEW
  5
4990
100
AcDbSymbolTable
  0
ENDTAB
  0
TABLE
  2
UCS
  5
4991
100
AcDbSymbolTable
  0
ENDTAB
  0
TABLE
  2
DIMSTYLE
  5
A
100
AcDbSymbolTable
 70
1
100
AcDbDimStyleTable
 71
0
  0
DIMSTYLE
105
A7
100
AcDbSymbolTableRecord
100
AcDbDimStyleTableRecord
  2
Standard
 70
0
 41
0.18
 42
0.0625
 44
0.18
 73
1
 74
1
 77
0
140
0.18
141
0
144
1
147
0.0625
174
0
176
0
177
0
178
0
271
4
340
26
343
498B
344
498B
371
-1
372
-1
  0
DIMSTYLE
105
3473
100
AcDbSymbolTableRecord
100
AcDbDimStyleTableRecord
  2
STANDARD ENGLISH
 70
0
 41
2
 42
2
 44
1
 73
1
 74
1
 77
0
140
2
141
0
144
1
147
0.0625
174
0
176
1
177
1
178
0
271
4
340
26
343
498B
344
498B
371
-1
372
-1
  0
ENDTAB
  0
ENDSEC
  0
SECTION
  2
BLOCKS
  0
BLOCK
  5
4992
100
AcDbEntity
  8
0
100
AcDbBlockBegin
  2
*MODEL_SPACE
 70
0
 10
0
 20
0
  0
ENDBLK
  5
4993
100
AcDbEntity
  8
0
100
AcDbBlockEnd
  0
BLOCK
  5
4994
100
AcDbEntity
  8
0
100
AcDbBlockBegin
  2
*PAPER_SPACE
 70
0
 10
0
 20
0
  0
ENDBLK
  5
4995
100
AcDbEntity
  8
0
100
AcDbBlockEnd
  0
BLOCK
  5
AC
100
AcDbEntity
  8
ASHADE
100
AcDbBlockBegin
  2
AVE_RENDER
 70
0
 10
0
 20
0
 30
0
  3
AVE_RENDER
  1
AVE_RENDER
  0
ENDBLK
  5
4996
100
AcDbEntity
  8
0
100
AcDbBlockEnd
  0
BLOCK
  5
AF
100
AcDbEntity
  8
ASHADE
100
AcDbBlockBegin
  2
AVE_GLOBAL
 70
0
 10
0
 20
0
 30
0
  3
AVE_GLOBAL
  1
AVE_GLOBAL
  0
ENDBLK
  5
4997
100
AcDbEntity
  8
0
100
AcDbBlockEnd
  0
BLOCK
  5
3874
100
AcDbEntity
  8
0
100
AcDbBlockBegin
  2
_CLOSEDFILLED
 70
0
 10
0
 20
0
 30
0
  3
_CLOSEDFILLED
  1

  0
SOLID
  5
3872
100
AcDbEntity
  8
0
100
AcDbTrace
370
-2
 62
0
 48
0
 10
-1
 20
0.166666666666667
 30
0
 11
0
 21
0
 31
0
 12
-1
 22
0.166666666666667
 32
0
 13
-1
 23
-0.166666666666667
 33
0
  0
LINE
  5
3873
100
AcDbEntity
  8
0
100
AcDbLine
370
-2
 62
0
 48
0
 10
-1
 20
0
 30
0
 11
-2
 21
0
 31
0
  0
ENDBLK
  5
4998
100
AcDbEntity
  8
0
100
AcDbBlockEnd
  0
BLOCK
  5
383C
100
AcDbEntity
  8
0
100
AcDbBlockBegin
  2
FLUSH_REVEAL
 70
0
 10
0
 20
0
 30
0
  3
FLUSH_REVEAL
  1

  0
MTEXT
  5
3819
100
AcDbEntity
  8
0
100
AcDbMText
370
-1
 10
103.245556682855
 20
-17.4899569859036
 30
0
 40
2
  1

 50
0
 41
76.1751022338867
  7
Standard
 71
1
  0
MTEXT
  5
381A
100
AcDbEntity
  8
0
100
AcDbMText
370
-1
 10
-288.973352933947
 20
-39.9626969377472
 30
0
 40
2
  1

 50
0
 41
76.1751022338867
  7
Standard
 71
1
  0
INSERT
  5
381B
100
AcDbEntity
  8
ASHADE
100
AcDbBlockReference
370
-1
 62
1
  2
AVE_RENDER
 10
-392.218909616802
 20
-22.4727399518437
 30
0
 41
1
 42
1
 43
1
1001
ABViewer
1000
DXFInsert
1002
{
1070
70
1070
-1
1002
}
  0
INSERT
  5
381C
100
AcDbEntity
  8
ASHADE
100
AcDbBlockReference
370
-1
 62
3
  2
AVE_RENDER
 10
-392.218909616802
 20
-22.4727399518437
 30
0
 41
1
 42
1
 43
1
1001
ABViewer
1000
DXFInsert
1002
{
1070
70
1070
-1
1002
}
  0
INSERT
  5
381D
100
AcDbEntity
  8
ASHADE
100
AcDbBlockReference
370
-1
 62
4
  2
AVE_RENDER
 10
-392.218909616802
 20
-22.4727399518437
 30
0
 41
1
 42
1
 43
1
1001
ABViewer
1000
DXFInsert
1002
{
1070
70
1070
-1
1002
}
  0
INSERT
  5
381E
100
AcDbEntity
  8
ASHADE
100
AcDbBlockReference
370
-1
 62
5
  2
AVE_RENDER
 10
-392.218909616802
 20
-22.4727399518437
 30
0
 41
1
 42
1
 43
1
1001
ABViewer
1000
DXFInsert
1002
{
1070
70
1070
-1
1002
}
  0
INSERT
  5
381F
100
AcDbEntity
  8
ASHADE
100
AcDbBlockReference
370
-1
 62
6
  2
AVE_RENDER
 10
-392.218909616802
 20
-22.4727399518437
 30
0
 41
1
 42
1
 43
1
1001
ABViewer
1000
DXFInsert
1002
{
1070
70
1070
-1
1002
}
  0
INSERT
  5
3820
100
AcDbEntity
  8
ASHADE
100
AcDbBlockReference
370
-1
 62
7
  2
AVE_RENDER
 10
-392.218909616802
 20
-22.4727399518437
 30
0
 41
1
 42
1
 43
1
1001
ABViewer
1000
DXFInsert
1002
{
1070
70
1070
-1
1002
}
  0
INSERT
  5
3821
100
AcDbEntity
  8
ASHADE
100
AcDbBlockReference
370
-1
 62
8
  2
AVE_RENDER
 10
-392.218909616802
 20
-22.4727399518437
 30
0
 41
1
 42
1
 43
1
1001
ABViewer
1000
DXFInsert
1002
{
1070
70
1070
-1
1002
}
  0
INSERT
  5
3822
100
AcDbEntity
  8
ASHADE
100
AcDbBlockReference
370
-1
 62
9
  2
AVE_RENDER
 10
-392.218909616802
 20
-22.4727399518437
 30
0
 41
1
 42
1
 43
1
1001
ABViewer
1000
DXFInsert
1002
{
1070
70
1070
-1
1002
}
  0
INSERT
  5
3823
100
AcDbEntity
  8
ASHADE
100
AcDbBlockReference
370
-1
 62
1
  2
AVE_GLOBAL
 10
-392.218909616802
 20
-22.4727399518437
 30
0
 41
1
 42
1
 43
1
1001
ABViewer
1000
DXFInsert
1002
{
1070
70
1070
-1
1002
}
  0
MTEXT
  5
3824
100
AcDbEntity
  8
0
100
AcDbMText
370
-1
 10
-29.8037435910299
 20
61.9314396785419
 30
0
 40
3
  1

 50
0
 41
131.243804931641
  7
Standard
 71
1
  0
MTEXT
  5
3825
100
AcDbEntity
  8
0
100
AcDbMText
370
-1
 10
14.1840666586274
 20
73.5883692156497
 30
0
 40
2
  1

 50
0
 41
125.900703430176
  7
Standard
 71
2
  0
MTEXT
  5
3826
100
AcDbEntity
  8
0
100
AcDbMText
370
-1
 10
55.9889115355623
 20
66.3032183234139
 30
0
 40
2
  1

 50
0
 41
100.62329864502
  7
Standard
 71
2
  0
MTEXT
  5
3827
100
AcDbEntity
  8
0
100
AcDbMText
370
-1
 10
35.3295330690137
 20
68.2459253433486
 30
0
 40
2
  1

 50
0
 41
115.692497253418
  7
Standard
 71
2
  0
HATCH
  5
3828
100
AcDbEntity
  8
0
100
AcDbHatch
370
-1
 10
0
 20
0
 30
0
210
0
220
0
230
1
  2
GRAVEL
 70
0
 71
0
 91
1
 92
33
 93
4
 72
1
 10
-12.1134693186689
 20
-3.2332940959584
 11
-2.06501561565375
 21
-3.2332940959584
 72
1
 10
-2.06501561565375
 20
-3.2332940959584
 11
-2.06501561565375
 21
-0.433294095958331
 72
2
 10
-2.76501561565372
 20
-0.433294095958374
 40
0.699999999999975
 50
3.4895E-12
 51
90.0000000000035
 73
1
 72
1
 10
-2.76501561565377
 20
0.266705904041601
 11
-13.3382155677259
 21
0.266705904041601
 97
0
 75
0
 76
1
 52
0
 41
1
 77
0
 78
41
 53
228.0128
 43
-39.2607302260394
 44
-9.75100416461555
 45
-22.3999950500429
 46
-25.2000037565003
 79
2
 49
-37.2934464
 49
0.3767008
 53
184.9697
 43
-39.5127302260394
 44
-10.0310041646156
 45
33.6000029442494
 46
2.79997565961974
 79
2
 49
-63.99659
 49
0.6464304
 53
132.5104
 43
-40.1567302260394
 44
-10.0870041646156
 45
27.9999740113711
 46
-30.8000242868393
 79
2
 49
0.4558064
 49
-45.1248896
 53
267.2737
 43
-41.2487302260394
 44
-10.7870041646156
 45
2.79998884963613
 46
56.0000008259257
 79
2
 49
-58.2779624
 49
0.5886664
 53
292.8337
 43
-41.2767302260394
 44
-11.3750041646156
 45
-14.000027735224
 46
33.5999899529778
 79
2
 49
-57.1462444
 49
0.577234
 53
357.2737
 43
-41.0527302260394
 44
-11.9070041646156
 45
-56.0000008259257
 46
2.79998884963614
 79
2
 49
-58.2779624
 49
0.5886664
 53
37.6942
 43
-40.4647302260394
 44
-11.9350041646156
 45
-36.4000205677303
 46
-27.9999731344495
 79
2
 49
0.7784812
 49
-77.0695772
 53
72.2553
 43
-39.8487302260394
 44
-11.4590041646156
 45
19.6000301355751
 46
61.5999894474697
 79
2
 49
0.7349664
 49
-72.7616988
 53
121.4296
 43
-39.6247302260394
 44
-10.7590041646156
 45
-22.4000230556938
 46
36.3999861021792
 79
2
 49
0.59066
 49
-58.4754044
 53
175.2364
 43
-39.9327302260394
 44
-10.2550041646156
 45
30.8000026496948
 46
-2.79997629145153
 79
2
 49
0.674329599999999
 49
-33.0421363999999
 53
222.3974
 43
-40.6047302260394
 44
-10.1990041646156
 45
-33.600020583005
 46
-30.7999778296395
 79
2
 49
-86.33345
 49
0.8720544
 53
138.8141
 43
-38.4767302260394
 44
-10.8150041646156
 45
-19.600008251056
 46
16.7999924773597
 79
2
 49
0.2976428
 49
-29.4667632
 53
171.4692
 43
-38.7007302260394
 44
-10.6190041646156
 45
36.3999951974823
 46
-5.60002214811141
 79
2
 49
0.566263599999999
 49
-56.0602307999999
 53
225
 43
-39.2607302260394
 44
-10.5350041646155
 45
-3E-16
 46
-2.80000086645707
 79
2
 49
-3.5638176
 49
0.3959788
 53
203.1986
 43
-39.4567302260394
 44
-10.1990041646156
 45
13.9999992458678
 46
5.60000371074159
 79
2
 49
-21.110922
 49
0.2132424
 53
291.8014
 43
-39.6527302260394
 44
-10.2830041646156
 45
-2.79999974940182
 46
8.40000076443016
 79
2
 49
-14.7768936
 49
0.3015684
 53
30.9638
 43
-39.5407302260394
 44
-10.5630041646156
 45
8.39999446240639
 46
5.60000695391405
 79
2
 49
0.4898012
 49
-15.8368644
 53
161.5651
 43
-39.1207302260394
 44
-10.3110041646156
 45
5.60000121686029
 46
-2.79999552902358
 79
2
 49
0.3541748
 49
-8.5002036
 53
16.3895
 43
-41.2767302260394
 44
-10.2830041646156
 45
28.0000061555535
 46
8.39997958749032
 79
2
 49
0.49616
 49
-49.119966
 53
70.3462
 43
-40.8007302260394
 44
-10.1430041646156
 45
-11.1999866926409
 46
-30.8000059796974
 79
2
 49
0.4162508
 49
-41.2087424
 53
293.1986
 43
-39.1207302260394
 44
-9.75100416461555
 45
-5.60000371074159
 46
13.9999992458678
 79
2
 49
-20.8976824
 49
0.426482
 53
343.6105
 43
-38.9527302260394
 44
-10.1430041646156
 45
-28.0000061555535
 46
8.39997958749032
 79
2
 49
-49.1199659999999
 49
0.49616
 53
339.444
 43
-41.2767302260394
 44
-12.0190041646156
 45
-14.0000051647188
 46
5.59998878998043
 79
2
 49
-23.4447472
 49
0.478464
 53
294.7751
 43
-40.8287302260394
 44
-12.1870041646156
 45
-13.9999781298865
 46
30.8000095811495
 79
2
 49
-39.6890003999999
 49
0.4008984
 53
66.8014
 43
-39.0927302260394
 44
-12.5510041646156
 45
5.60000371074159
 46
13.9999992458678
 79
2
 49
0.426482
 49
-20.8976824
 53
17.354
 43
-38.9247302260394
 44
-12.1590041646156
 45
-36.4000056534711
 46
-11.1999846063255
 79
2
 49
0.4693668
 49
-46.4671872
 53
69.444
 43
-40.4647302260394
 44
-12.5510041646156
 45
-5.59998878998044
 46
-14.0000051647188
 79
2
 49
0.239232
 49
-23.6839792
 53
101.3099
 43
-39.2607302260394
 44
-12.5510041646156
 45
-2.79999337005249
 46
11.2000021062467
 79
2
 49
0.142772
 49
-14.1344812
 53
165.9638
 43
-39.2887302260394
 44
-12.4110041646156
 45
8.40000152877127
 46
-2.79999456061149
 79
2
 49
0.577234
 49
-10.96746
 53
186.009
 43
-39.8487302260394
 44
-12.2710041646157
 45
27.9999993025369
 46
2.79999808894916
 79
2
 49
-52.9589844
 49
0.53494
 53
303.6901
 43
-39.5407302260394
 44
-10.8150041646156
 45
-2.80000373662013
 46
5.59999876175925
 79
2
 49
-9.6917212
 49
0.4038216
 53
353.1572
 43
-39.3167302260394
 44
-11.1510041646156
 45
47.5999982233399
 46
-5.60002239418933
 79
2
 49
-69.7971764
 49
0.7050232
 53
60.9454
 43
-38.6167302260394
 44
-11.2350041646156
 45
-11.200000076158
 46
-19.6000010767951
 79
2
 49
0.2882768
 49
-28.5394872
 53
90
 43
-38.4767302260394
 44
-10.9830041646156
 45
-2.8
 46
2.8
 79
2
 49
0.168
 49
-2.632
 53
120.2564
 43
-39.9047302260394
 44
-12.1870041646156
 45
11.1999856830475
 46
-19.6000068763932
 79
2
 49
0.3889872
 49
-38.509856
 53
48.0128
 43
-40.1007302260394
 44
-11.8510041646156
 45
22.3999950500429
 46
25.2000037565003
 79
2
 49
0.7534016
 49
-36.9167456
 53
0
 43
-39.5967302260394
 44
-11.2910041646156
 45
2.8
 46
2.8
 79
2
 49
0.728
 49
-2.072
 53
325.3048
 43
-38.8687302260394
 44
-11.2910041646156
 45
-27.9999839251651
 46
19.6000241068645
 79
2
 49
-43.8291672
 49
0.4427192
 53
254.0546
 43
-38.5047302260394
 44
-11.5430041646156
 45
-2.79999969002987
 46
-11.200000354626
 79
2
 49
-19.9766224
 49
0.4076856
 53
207.646
 43
-38.6167302260394
 44
-11.9350041646156
 45
-53.1999882601028
 46
-28.0000215968737
 79
2
 49
-65.7145272
 49
0.663782
 53
175.4261
 43
-39.2047302260394
 44
-12.2430041646156
 45
-36.400001563274
 46
2.79998544325103
 79
2
 49
0.702237199999999
 49
-69.5214071999999
 98
0
  0
LWPOLYLINE
  5
3829
100
AcDbEntity
  8
0
100
AcDbPolyline
370
-1
 38
0
 90
5
 70
0
 10
-12.1134693186689
 20
-3.2332940959584
 10
-2.06501561565375
 20
-3.2332940959584
 10
-2.06501561565375
 20
-0.433294095958331
 42
0.414213562373095
 10
-2.76501561565377
 20
0.266705904041601
 10
-13.3382155677259
 20
0.266705904041601
  0
LWPOLYLINE
  5
382A
100
AcDbEntity
  8
0
100
AcDbPolyline
370
-1
 62
3
 38
0
 90
4
 70
0
 10
-5.98907312337788
 20
-3.2332940959584
 10
-3.06501561565375
 20
-3.2332940959584
 42
-0.414213562373095
 10
-2.06501561565375
 20
-4.2332940959584
 10
-2.06501561565375
 20
-4.89394432972586
  0
LWPOLYLINE
  5
3839
100
AcDbEntity
  8
0
100
AcDbPolyline
370
-1
 62
3
 38
0
 90
4
 70
0
 10
-5.98907312337788
 20
-3.4082940959584
 10
-3.06501561565375
 20
-3.4082940959584
 42
-0.414213562373095
 10
-2.24001561565375
 20
-4.2332940959584
 10
-2.24001561565375
 20
-4.89394432972586
  0
LINE
  5
382B
100
AcDbEntity
  8
0
100
AcDbLine
370
-1
 62
3
 10
-5.98907312337788
 20
-3.2332940959584
 30
0
 11
-5.98907312337788
 21
-3.40829409595836
 31
0
  0
LINE
  5
382C
100
AcDbEntity
  8
0
100
AcDbLine
370
-1
 62
3
 10
-2.39167851156694
 20
-4.94714270133227
 30
0
 11
-2.19978110195993
 21
-4.89653984730262
 31
0
  0
LINE
  5
382D
100
AcDbEntity
  8
0
100
AcDbLine
370
-1
 62
3
 10
-2.19978110195993
 20
-4.89653984730262
 30
0
 11
-2.17521663707767
 21
-4.81066830692999
 31
0
  0
LINE
  5
382E
100
AcDbEntity
  8
0
100
AcDbLine
370
-1
 62
3
 10
-2.17521663707767
 20
-4.81066830692999
 30
0
 11
-2.13530294515417
 21
-5.00694625730194
 31
0
  0
LINE
  5
382F
100
AcDbEntity
  8
0
100
AcDbLine
370
-1
 62
3
 10
-2.13530294515417
 20
-5.00694625730194
 30
0
 11
-2.11534491135576
 21
-4.90880728211596
 31
0
  0
LINE
  5
3830
100
AcDbEntity
  8
0
100
AcDbLine
370
-1
 62
3
 10
-2.11534491135576
 20
-4.90880728211596
 30
0
 11
-1.9387991044633
 21
-4.85667080998951
 31
0
  0
LINE
  5
3831
100
AcDbEntity
  8
0
100
AcDbLine
370
-1
 10
-13.5618939522677
 20
1.20507677334467
 30
0
 11
-13.0467053783428
 21
-0.956231530804189
 31
0
  0
LINE
  5
3832
100
AcDbEntity
  8
0
100
AcDbLine
370
-1
 10
-13.0467053783428
 20
-0.956231530804189
 30
0
 11
-11.6935335819544
 21
-0.666038975672336
 31
0
  0
LINE
  5
3833
100
AcDbEntity
  8
0
100
AcDbLine
370
-1
 10
-11.6935335819544
 20
-0.666038975672336
 30
0
 11
-14.303674272854
 21
-2.47098114225582
 31
0
  0
LINE
  5
3834
100
AcDbEntity
  8
0
100
AcDbLine
370
-1
 10
-14.303674272854
 20
-2.47098114225582
 30
0
 11
-12.4418968940483
 21
-1.94226089264612
 31
0
  0
LINE
  5
3835
100
AcDbEntity
  8
0
100
AcDbLine
370
-1
 10
-12.4418968940483
 20
-1.94226089264612
 30
0
 11
-11.8760613349368
 21
-4.16653360660405
 31
0
  0
MTEXT
  5
3836
100
AcDbEntity
  8
0
100
AcDbMText
370
-1
 10
2.13769997517049
 20
0.729874107793648
 30
0
 40
1.4
  1
RIM OF SINK
 50
0
 41
34.2850608825684
  7
PAPER
 71
1
  0
LEADER
  5
3837
100
AcDbEntity
  8
0
100
AcDbLeader
370
-1
  3
STANDARD ENGLISH
 71
1
 72
0
 73
3
 74
0
 40
1
 41
1
 76
2
 10
-1.56507651802178
 20
-4.13812507418879
 30
0
 10
1.97538326522326
 20
-0.922504012368222
 30
0
340
0
1001
ACAD
1000
DSTYLE
1002
{
1070
40
1040
1
1070
41
1040
2
1070
341
1005
498B
1002
}
  0
MTEXT
  5
3838
100
AcDbEntity
  8
0
100
AcDbMText
370
-1
 10
-7.75062320925124
 20
4.07387275118981
 30
0
 40
1.4
  1
FLUSH REVEAL
 50
0
 41
21.2004776000977
  7
PAPER
 71
1
  0
ENDBLK
  5
4999
100
AcDbEntity
  8
0
100
AcDbBlockEnd
  0
BLOCK
  5
499A
100
AcDbEntity
  8
0
100
AcDbBlockBegin
  2
ABViewer_RedLine
 70
1
 10
0
 20
0
 30
0
  3
ABViewer_RedLine
  1

  0
ENDBLK
  5
499B
100
AcDbEntity
  8
0
100
AcDbBlockEnd
  0
ENDSEC
  0
SECTION
  2
ENTITIES
  0
MTEXT
  5
20A0
100
AcDbEntity
  8
0
100
AcDbMText
370
-1
 10
2653.83219896111
 20
2933.18892944402
 30
0
 40
2
  1

 50
0
 41
76.1751022338867
  7
Standard
 71
1
  0
MTEXT
  5
20A1
100
AcDbEntity
  8
0
100
AcDbMText
370
-1
 10
2261.61328934431
 20
2910.71618949218
 30
0
 40
2
  1

 50
0
 41
76.1751022338867
  7
Standard
 71
1
  0
INSERT
  5
20A2
100
AcDbEntity
  8
ASHADE
100
AcDbBlockReference
370
-1
 62
1
  2
AVE_RENDER
 10
2158.36773266146
 20
2928.20614647808
 30
0
 41
1
 42
1
 43
1
1001
ABViewer
1000
DXFInsert
1002
{
1070
70
1070
-1
1002
}
  0
INSERT
  5
20A3
100
AcDbEntity
  8
ASHADE
100
AcDbBlockReference
370
-1
 62
3
  2
AVE_RENDER
 10
2158.36773266146
 20
2928.20614647808
 30
0
 41
1
 42
1
 43
1
1001
ABViewer
1000
DXFInsert
1002
{
1070
70
1070
-1
1002
}
  0
INSERT
  5
20A4
100
AcDbEntity
  8
ASHADE
100
AcDbBlockReference
370
-1
 62
4
  2
AVE_RENDER
 10
2158.36773266146
 20
2928.20614647808
 30
0
 41
1
 42
1
 43
1
1001
ABViewer
1000
DXFInsert
1002
{
1070
70
1070
-1
1002
}
  0
INSERT
  5
20A5
100
AcDbEntity
  8
ASHADE
100
AcDbBlockReference
370
-1
 62
5
  2
AVE_RENDER
 10
2158.36773266146
 20
2928.20614647808
 30
0
 41
1
 42
1
 43
1
1001
ABViewer
1000
DXFInsert
1002
{
1070
70
1070
-1
1002
}
  0
INSERT
  5
20A6
100
AcDbEntity
  8
ASHADE
100
AcDbBlockReference
370
-1
 62
6
  2
AVE_RENDER
 10
2158.36773266146
 20
2928.20614647808
 30
0
 41
1
 42
1
 43
1
1001
ABViewer
1000
DXFInsert
1002
{
1070
70
1070
-1
1002
}
  0
INSERT
  5
20A7
100
AcDbEntity
  8
ASHADE
100
AcDbBlockReference
370
-1
 62
7
  2
AVE_RENDER
 10
2158.36773266146
 20
2928.20614647808
 30
0
 41
1
 42
1
 43
1
1001
ABViewer
1000
DXFInsert
1002
{
1070
70
1070
-1
1002
}
  0
INSERT
  5
20A8
100
AcDbEntity
  8
ASHADE
100
AcDbBlockReference
370
-1
 62
8
  2
AVE_RENDER
 10
2158.36773266146
 20
2928.20614647808
 30
0
 41
1
 42
1
 43
1
1001
ABViewer
1000
DXFInsert
1002
{
1070
70
1070
-1
1002
}
  0
INSERT
  5
20A9
100
AcDbEntity
  8
ASHADE
100
AcDbBlockReference
370
-1
 62
9
  2
AVE_RENDER
 10
2158.36773266146
 20
2928.20614647808
 30
0
 41
1
 42
1
 43
1
1001
ABViewer
1000
DXFInsert
1002
{
1070
70
1070
-1
1002
}
  0
INSERT
  5
20AA
100
AcDbEntity
  8
ASHADE
100
AcDbBlockReference
370
-1
 62
1
  2
AVE_GLOBAL
 10
2158.36773266146
 20
2928.20614647808
 30
0
 41
1
 42
1
 43
1
1001
ABViewer
1000
DXFInsert
1002
{
1070
70
1070
-1
1002
}
  0
MTEXT
  5
20AB
100
AcDbEntity
  8
0
100
AcDbMText
370
-1
 10
2520.78289868723
 20
3012.61032610847
 30
0
 40
3
  1

 50
0
 41
131.243804931641
  7
Standard
 71
1
  0
MTEXT
  5
20AC
100
AcDbEntity
  8
0
100
AcDbMText
370
-1
 10
2564.77070893689
 20
3024.26725564557
 30
0
 40
2
  1

 50
0
 41
125.900703430176
  7
Standard
 71
2
  0
MTEXT
  5
20AD
100
AcDbEntity
  8
0
100
AcDbMText
370
-1
 10
2606.57555381382
 20
3016.98210475334
 30
0
 40
2
  1

 50
0
 41
100.62329864502
  7
Standard
 71
2
  0
MTEXT
  5
20AE
100
AcDbEntity
  8
0
100
AcDbMText
370
-1
 10
2585.91617534727
 20
3018.92481177327
 30
0
 40
2
  1

 50
0
 41
115.692497253418
  7
Standard
 71
2
  0
MTEXT
  5
33EF
100
AcDbEntity
  8
0
100
AcDbMText
370
-1
 10
2653.83219896111
 20
2933.18892944402
 30
0
 40
2
  1

 50
0
 41
76.1751022338867
  7
Standard
 71
1
  0
MTEXT
  5
33F0
100
AcDbEntity
  8
0
100
AcDbMText
370
-1
 10
2261.61328934431
 20
2910.71618949218
 30
0
 40
2
  1

 50
0
 41
76.1751022338867
  7
Standard
 71
1
  0
INSERT
  5
33F1
100
AcDbEntity
  8
ASHADE
100
AcDbBlockReference
370
-1
 62
1
  2
AVE_RENDER
 10
2158.36773266146
 20
2928.20614647808
 30
0
 41
1
 42
1
 43
1
1001
ABViewer
1000
DXFInsert
1002
{
1070
70
1070
-1
1002
}
  0
INSERT
  5
33F2
100
AcDbEntity
  8
ASHADE
100
AcDbBlockReference
370
-1
 62
3
  2
AVE_RENDER
 10
2158.36773266146
 20
2928.20614647808
 30
0
 41
1
 42
1
 43
1
1001
ABViewer
1000
DXFInsert
1002
{
1070
70
1070
-1
1002
}
  0
INSERT
  5
33F3
100
AcDbEntity
  8
ASHADE
100
AcDbBlockReference
370
-1
 62
4
  2
AVE_RENDER
 10
2158.36773266146
 20
2928.20614647808
 30
0
 41
1
 42
1
 43
1
1001
ABViewer
1000
DXFInsert
1002
{
1070
70
1070
-1
1002
}
  0
INSERT
  5
33F4
100
AcDbEntity
  8
ASHADE
100
AcDbBlockReference
370
-1
 62
5
  2
AVE_RENDER
 10
2158.36773266146
 20
2928.20614647808
 30
0
 41
1
 42
1
 43
1
1001
ABViewer
1000
DXFInsert
1002
{
1070
70
1070
-1
1002
}
  0
INSERT
  5
33F5
100
AcDbEntity
  8
ASHADE
100
AcDbBlockReference
370
-1
 62
6
  2
AVE_RENDER
 10
2158.36773266146
 20
2928.20614647808
 30
0
 41
1
 42
1
 43
1
1001
ABViewer
1000
DXFInsert
1002
{
1070
70
1070
-1
1002
}
  0
INSERT
  5
33F6
100
AcDbEntity
  8
ASHADE
100
AcDbBlockReference
370
-1
 62
7
  2
AVE_RENDER
 10
2158.36773266146
 20
2928.20614647808
 30
0
 41
1
 42
1
 43
1
1001
ABViewer
1000
DXFInsert
1002
{
1070
70
1070
-1
1002
}
  0
INSERT
  5
33F7
100
AcDbEntity
  8
ASHADE
100
AcDbBlockReference
370
-1
 62
8
  2
AVE_RENDER
 10
2158.36773266146
 20
2928.20614647808
 30
0
 41
1
 42
1
 43
1
1001
ABViewer
1000
DXFInsert
1002
{
1070
70
1070
-1
1002
}
  0
INSERT
  5
33F8
100
AcDbEntity
  8
ASHADE
100
AcDbBlockReference
370
-1
 62
9
  2
AVE_RENDER
 10
2158.36773266146
 20
2928.20614647808
 30
0
 41
1
 42
1
 43
1
1001
ABViewer
1000
DXFInsert
1002
{
1070
70
1070
-1
1002
}
  0
INSERT
  5
33F9
100
AcDbEntity
  8
ASHADE
100
AcDbBlockReference
370
-1
 62
1
  2
AVE_GLOBAL
 10
2158.36773266146
 20
2928.20614647808
 30
0
 41
1
 42
1
 43
1
1001
ABViewer
1000
DXFInsert
1002
{
1070
70
1070
-1
1002
}
  0
MTEXT
  5
33FA
100
AcDbEntity
  8
0
100
AcDbMText
370
-1
 10
2520.78289868723
 20
3012.61032610847
 30
0
 40
3
  1

 50
0
 41
131.243804931641
  7
Standard
 71
1
  0
MTEXT
  5
33FB
100
AcDbEntity
  8
0
100
AcDbMText
370
-1
 10
2564.77070893689
 20
3024.26725564557
 30
0
 40
2
  1

 50
0
 41
125.900703430176
  7
Standard
 71
2
  0
MTEXT
  5
33FC
100
AcDbEntity
  8
0
100
AcDbMText
370
-1
 10
2606.57555381382
 20
3016.98210475334
 30
0
 40
2
  1

 50
0
 41
100.62329864502
  7
Standard
 71
2
  0
MTEXT
  5
33FD
100
AcDbEntity
  8
0
100
AcDbMText
370
-1
 10
2585.91617534727
 20
3018.92481177327
 30
0
 40
2
  1

 50
0
 41
115.692497253418
  7
Standard
 71
2
  0
LWPOLYLINE
  5
3EA2
100
AcDbEntity
  8
CUTOUT
100
AcDbPolyline
370
-1
 38
0
 90
8
 70
1
 10
7.56111254805674
 20
1.37305919331016
 10
7.56111254805674
 20
17.7530591933102
 42
0.414213562373095
 10
7.31111254805674
 20
18.0030591933102
 10
-10.0688874519433
 20
18.0030591933102
 42
0.414213562373095
 10
-10.3188874519433
 20
17.7530591933102
 10
-10.3188874519433
 20
1.37305919331017
 42
0.414213562373095
 10
-10.0688874519433
 20
1.12305919331017
 10
7.31111254805673
 20
1.12305919331016
 42
0.414213562373095
  0
LWPOLYLINE
  5
3EA1
100
AcDbEntity
  8
CARCASS
100
AcDbPolyline
370
-1
  6
HIDDEN
 38
0
 90
4
 70
1
 10
8.62111254805674
 20
0.0630591933101652
 10
8.62111254805674
 20
19.0630591933102
 10
-11.3788874519433
 20
19.0630591933102
 10
-11.3788874519433
 20
0.0630591933101652
  0
CIRCLE
  5
446B
100
AcDbEntity
  8
0
100
AcDbCircle
370
-1
 10
-1.49501890436321
 20
20.2952873477226
 30
0
 40
0.75
  0
CIRCLE
  5
446A
100
AcDbEntity
  8
CARCASS
100
AcDbCircle
370
-1
  6
HIDDEN
 10
-1.49501890436321
 20
20.2952873477226
 30
0
 40
1.125
  0
MTEXT
  5
497E
100
AcDbEntity
  8
0
100
AcDbMText
370
-1
 10
-1.40792589375375
 20
10.1792239896258
 30
0
 40
2
  1
2321-S\PU.M. SINK
 50
0
 41
27.1781635284424
  7
Standard
 71
2
 11
1.00000000000001
 21
-1.15463194561016E-14
 31
0
  0
INSERT
  5
383F
100
AcDbEntity
  8
0
100
AcDbBlockReference
370
-1
  2
FLUSH_REVEAL
 10
27.0675876255904
 20
8.86567848024488
 30
0
 41
1
 42
1
 43
1
1001
ABViewer
1000
DXFInsert
1002
{
1070
70
1070
-1
1002
}
  0
ENDSEC
  0
SECTION
  2
OBJECTS
  0
DICTIONARY
  5
499C
100
AcDbDictionary
  3
ACAD_GROUP
350
499D
  3
ACAD_MATERIAL
350
499E
  3
ACAD_WIPEOUT_VARS
350
499F
  3
ACAD_MLINESTYLE
350
49A0
  0
DICTIONARY
  5
499D
100
AcDbDictionary
  0
DICTIONARY
  5
499E
100
AcDbDictionary
  0
WIPEOUTVARIABLES
  5
499F
100
AcDbWipeoutVariables
 70
1
  0
DICTIONARY
  5
49A0
100
AcDbDictionary
  3
STANDARD
350
49A1
  0
MLINESTYLE
  5
49A1
100
AcDbMlineStyle
  2
STANDARD
 70
0
  3

 62
256
 51
90
 52
90
 71
2
 49
0.5
 62
256
  6
ByLayer
 49
-0.5
 62
256
  6
ByLayer
  0
ENDSEC
  0
EOF
